letra, letras, acorde, acordes, tablatura, tablaturas, partitura, partituras de la canción Venezuela de Herrero y Armenteros, 39247

Venezuela de Herrero y Armenteros

Colaboración de Emmanuel Galicia (TAB)

(Spideylandia @ hotmail.com)          (Visitas: 3846)

Ver Venezuela de Herrero y Armenteros en vista para impresión



¿Dudas de cómo es un acorde? Visitar la página cómo formar acordes en guitarra

Alegro
Tiempo: 3/4
Tono: D Mayor

Hola que tal? Yo de nuevo! Aqui tienen mi segunda transcripción, 
como veran nada del otro mundo... espero que la disfrute!

E ---------------|---------------|---------------|--------------|
B ---------------|---------------|---------------|--------------|
G ---------------|---------------|---------------|--------------|
D -----0----0----|2----0----2----|4----2----0----|---------S----|
A 0--------------|---------------|---------------|0-------------|
E ---------------|---------------|---------------|--------------|

E ---------------|---------------|-------------|-------------|
B ---------------|---------------|-------------|-------------|
G ---------------|----------0----|-------------|-------------|
D -----0---------|-----0---------|4------------|----S--------|
A 0---------0----|2--------------|-------------|-------------|
E ---------------|---------------|-------------|-------------|

E ---------------|---------------|---------------|-------------|
B ---------------|---------------|---------------|-------------|
G ---------------|0--------------|---------------|-------------|
D 4----4----4----|-----4------2--|2----0---------|0------------|
A ---------------|---------------|----------4----|-------------|
E ---------------|---------------|---------------|-------------|

E ---------------|---------------|-------------|-------------|
B ---------------|---------------|-------------|-------------|
G ---------------|---------------|-------------|-------------|
D 2----2----2----|4----2---------|0------------|-------------|
A ---------------|----------2----|-------------|4------------|
E ---------------|---------------|-------------|-------------|

E ---------------|---------------|---------------|--------------|
B ---------------|---------------|---------------|--------------|
G ---------------|---------------|---------------|--------------|
D -----0----0----|2----0----2----|4----2----0----|---------S----|
A 0--------------|---------------|---------------|0-------------|
E ---------------|---------------|---------------|--------------|

E ---------------|---------------|-------------|-------------|
B ---------------|---------------|-------------|-------------|
G ---------------|----------0----|-------------|-------------|
D -----0---------|-----0---------|4------------|----S--------|
A 0---------0----|2--------------|-------------|-------------|
E ---------------|---------------|-------------|-------------|

E ---------------|----------------|---------------|---------------|
B ---------------|----------------|---------------|---------------|
G ---------------|--------------0-|2----2----0----|---------------|
D 4----4------2--|2----0------4---|---------------|4--------0--2--|
A ---------------|----------------|---------------|---------------|
E ---------------|----------------|---------------|---------------|

E -------------|---------------|-------------|---------------|
B -------------|---------------|-------------|---------------|
G -------------|---------------|-------------|------------0--|
D 4------------|2----0---------|0------------|----S----4-----|
A -------------|----------4----|-------------|---------------|
E -------------|---------------|-------------|---------------|

E --------------|--------------|---------------|---------------|
B --------------|--------------|0--------------|---------------|
G 2-------------|2-------------|-----2----0----|---------------|
D ---------4----|---------4----|---------------|4--------0--2--|
A --------------|--------------|---------------|---------------|
E --------------|--------------|---------------|---------------|

E -------------|---------------|-------------|---------------|
B -------------|0--------------|-------------|---------------|
G -------------|-----1---------|-------------|---------------|
D 4------------|----------2----|0------------|---------------|
A -------------|---------------|----4--------|----S----0--0--|
E -------------|---------------|-------------|---------------|

E --------------|---------------|---------------|-------------|
B --------------|---------------|---------------|-------------|
G --------------|---------------|-----0----2----|-------------|
D 0-------------|-2-------------|4--------------|0------------|
A ---------0----|----------0----|---------------|-------------|
E --------------|---------------|---------------|-------------|

E ----------------|--------------|-------------|---------------|
B ----------------|--------------|-------------|---------------|
G ----------------|--------------|-------------|------------0--|
D ------0----4----|2--------0----|-------------|----S----4-----|
A -0--------------|--------------|4------------|---------------|
E ----------------|--------------|-------------|---------------|

E --------------|--------------|---------------|---------------|
B --------------|--------------|0--------------|---------------|
G 2-------------|2-------------|-----2----0----|---------------|
D ---------4----|---------4----|---------------|4--------0--2--|
A --------------|--------------|---------------|---------------|
E --------------|--------------|---------------|---------------|

E -------------|---------------|-------------|---------------|
B -------------|0--------------|-------------|---------------|
G -------------|-----1---------|-------------|---------------|
D 4------------|----------2----|0------------|---------------|
A -------------|---------------|----4--------|----S----0--0--|
E -------------|---------------|-------------|---------------|

E --------------|---------------|---------------|-------------|
B --------------|---------------|---------------|-------------|
G --------------|---------------|-----0----2----|-------------|
D 0-------------|-2-------------|4--------------|0------------|
A ---------0----|----------0----|---------------|-------------|
E --------------|---------------|---------------|-------------|

E ----------------|--------------|-------------|
B ----------------|--------------|-------------|
G ----------------|--------------|-------------|
D ------0----4----|2--------0----|0------------|
A -0--------------|--------------|-------------|
E ----------------|--------------|-------------|

Esta pieza se la dedico a mi amorsote Karlita Casanova!!! >:)



Keywords / Palabras clave: Venezuela, Herrero y Armenteros, letras, letra, acordes, canciones, cancion, grupo, banda, cantante, tablatura, partitura, tocar con guitarra, armónica, teclado, bajo, ejecutar, bajar, mp3, música, chords, lyrics, versión, cover, piano, acrodes, acordes de Venezuela, Herrero y Armenteros

Inicio | Artistas | Recursos | Buscar | AGREGA TU TABLATURA A 10ACORDES | Contacto

www.10acordes.com.ar - 2014© - 2014-04-23 10:17:16