letra, letras, acorde, acordes, tablatura, tablaturas, partitura, partituras de la canción Volver a respirar de Qbo, 40152

Volver a respirar de Qbo

Colaboración de mario (TAB)

(mario18_pg @ hotmail.com)          (Visitas: 607)

Ver Volver a respirar de Qbo en vista para impresión



¿Dudas de cómo es un acorde? Visitar la página cómo formar acordes en guitarra

Intro:
---------------------------------------------------------------------------------------
---------------------------------------------------------------------------------------
---------------------------------------------------------------------------------------
-------------11--------11---11--------11----11--------11-------14-14----(x)-6----------
--------------9-10-9----9----9-10-9----9-----9-10-9----9-------12-12----(x)-7----------
---------------------------------------------------------------------------------------

---------------------------------------------------------------------------------------
---------------------------------------------------------------------------------------
---------------------------------------------------------------------------------------
--------------4-5-4(4)-4--4-5-4(4)-4--4-5-4(4)-4----7-7---------2----------------------
--------------4-5-4(4)-4--4-5-4(4)-4--4-5-4(4)-4----7-7---------2----------------------
--------------2-3-2(2)-2--2-3-2(2)-2--2-3-2(2)-2----5-5----(x)--0----------------------

---------------------------------------------------------------------------------------
----------2--------------2------------------2------------------------------------------
----------2--------------2------------------2------------------------------------------
---4-5-4-----------4-5-4--------------4-5-4-------------7-7---------2------------------
---4-5-4-----------4-5-4--------------4-5-4-------------7-7---------2------------------
---2-3-2-----------2-3-2--------------2-3-2-------------5-5----(x)--0------------------

---------------------------------------------------------------------------------------
---------------------------------------------------------------------------------------
---------------------------------------------------------------------------------------
--------0-4-xxxx-4---------------------------------------------------------------------
--------0-4-xxxx-4---------------------------------------------------------------------
--------0-2-xxxx-2---------------------------------------------------------------------

Escucho la voz que grita en tu interior que esta buscando algo...........
--------------------------------------------11-----------------------------------------
----9----------------------------------------------------------------------------------
---------------------------------------------------------------------------------------
---------------------------------------------------------------------------------------
---------------------------------------------------------------------------------------
---------------------------------------------------------------------------------------

---------------------------------------------------------------------------------------
---------------------------------------------------------------------------------------
---------------------------------------------------------------------------------------
--------0-4-xxxx-4---------------------------------------------------------------------
--------0-4-xxxx-4---------------------------------------------------------------------
--------0-2-xxxx-2---------------------------------------------------------------------

Que pueda situar tu mente en este lugar que pareceun cuadro surreal........
---------------------------------------------------------------------------------------
------9--------------------------------------------------------------------------------
---------------------------------------------------------------------------------------
---------------------------------------------------------------------------------------
---------------------------------------------------------------------------------------
---------------------------------------------------------------------------------------

---------------------------------------------------------------------------------------
---------------------------------------------------------------------------------------
---------------------------------------------------------------------------------------
--------0-4-xxxx-4---------------------------------------------------------------------
--------0-4-xxxx-4---------------------------------------------------------------------
--------0-2-xxxx-2---------------------------------------------------------------------

Tantas ideas no encuentran salida para tomar forma................
-----------------------------------------11--------------------------------------------
--9------------------------------------------------------------------------------------
---------------------------------------------------------------------------------------
---------------------------------------------------------------------------------------
---------------------------------------------------------------------------------------
---------------------------------------------------------------------------------------

---------------------------------------------------------------------------------------
---------------------------------------------------------------------------------------
---------------------------------------------------------------------------------------
--------0-4-xxxx-4---------------------------------------------------------------------
--------0-4-xxxx-4---------------------------------------------------------------------
--------0-2-xxxx-2---------------------------------------------------------------------

Y asi encontrar la honestidad que del mundo se va.................
---------------------------------------------------------------------------------------
----9----------------------------------------------------------------------------------
---------------------------------------------------------------------------------------
---------------------------------------------------------------------------------------
---------------------------------------------------------------------------------------
---------------------------------------------------------------------------------------

Coro:
---------------------------------------------------------------------------------------
---------------------------------------------------------------------------------------
-----67--------------------------------------------------------------------------------
-----67-----2--------4-5-4--4--4-5-4--4------------------------------------------------
-----45-----2--------4-5-4--4--4-5-4--4------------------------------------------------
------------0--------2-3-2--2--2-3-2--2------------------------------------------------

Volver a respirar................
---------------------------------------------------------------------------------------
---------------------------------------------------------------------------------------
---------------------------------------------------------------------------------------
---5-5-5-5-5-------------------5-5-5-5-5-----------------------------------------------
---5-5-5-5-5-------------------5-5-5-5-5-----------------------------------------------
---3-3-3-3-3-------------------3-3-3-3-3-----------------------------------------------

---------------------------------------------------------------------------------------
---------------------------------------------------------------------------------------
---------------------------------------------------------------------------------------
-------------11--------11---11--------11----11--------11-------14-14----(x)-6----------
--------------9-10-9----9----9-10-9----9-----9-10-9----9-------12-12----(x)-7----------
---------------------------------------------------------------------------------------

---------------------------------------------------------------------------------------
---------------------------------------------------------------------------------------
---------------------------------------------------------------------------------------
--------------4-5-4(4)-4--4-5-4(4)-4--4-5-4(4)-4----7-7---------2----------------------
--------------4-5-4(4)-4--4-5-4(4)-4--4-5-4(4)-4----7-7---------2----------------------
--------------2-3-2(2)-2--2-3-2(2)-2--2-3-2(2)-2----5-5----(x)--0----------------------

---------------------------------------------------------------------------------------
---------------------------------------------------------------------------------------
---------------------------------------------------------------------------------------
--------0-4-xxxx-4---------------------------------------------------------------------
--------0-4-xxxx-4---------------------------------------------------------------------
--------0-2-xxxx-2---------------------------------------------------------------------

Parece irreal que pueda adivinar que es lo que estas buscando.........
--------------------------------------11-----------------------------------------------
---9-----------------------------------------------------------------------------------
---------------------------------------------------------------------------------------
---------------------------------------------------------------------------------------
---------------------------------------------------------------------------------------
---------------------------------------------------------------------------------------

---------------------------------------------------------------------------------------
---------------------------------------------------------------------------------------
---------------------------------------------------------------------------------------
--------0-4-xxxx-4---------------------------------------------------------------------
--------0-4-xxxx-4---------------------------------------------------------------------
--------0-2-xxxx-2---------------------------------------------------------------------

Pero en la vida te vas a encontrar con un poco de soledad...........
---------------------------------------------------------------------------------------
-----9---------------------------------------------------------------------------------
---------------------------------------------------------------------------------------
---------------------------------------------------------------------------------------
---------------------------------------------------------------------------------------
---------------------------------------------------------------------------------------

---------------------------------------------------------------------------------------
---------------------------------------------------------------------------------------
---------------------------------------------------------------------------------------
--------0-4-xxxx-4---------------------------------------------------------------------
--------0-4-xxxx-4---------------------------------------------------------------------
--------0-2-xxxx-2---------------------------------------------------------------------

Yo se muy bien que piensas volar cuando cierras los ojos...............
-----------------------------------------11--------------------------------------------
-----9---------------------------------------------------------------------------------
---------------------------------------------------------------------------------------
---------------------------------------------------------------------------------------
---------------------------------------------------------------------------------------
---------------------------------------------------------------------------------------

---------------------------------------------------------------------------------------
---------------------------------------------------------------------------------------
---------------------------------------------------------------------------------------
--------0-4-xxxx-4---------------------------------------------------------------------
--------0-4-xxxx-4---------------------------------------------------------------------
--------0-2-xxxx-2---------------------------------------------------------------------

Lo se muy bien por que yo busco lo mismo que tu...............
---------------------------------------------------------------------------------------
---------------------------------------------------------------------------------------
---------------------------------------------------------------------------------------
---------------------------------------------------------------------------------------
---------------------------------------------------------------------------------------
---------------------------------------------------------------------------------------

Coro:
---------------------------------------------------------------------------------------
---------------------------------------------------------------------------------------
-----67--------------------------------------------------------------------------------
-----67-----2--------4-5-4--4--4-5-4--4------------------------------------------------
-----45-----2--------4-5-4--4--4-5-4--4------------------------------------------------
------------0--------2-3-2--2--2-3-2--2------------------------------------------------

Volver a respirar................
---------------------------------------------------------------------------------------
---------------------------------------------------------------------------------------
---------------------------------------------------------------------------------------
---5-5-5-5-5-------------------5-5-5-5-5-----------------------------------------------
---5-5-5-5-5-------------------5-5-5-5-5-----------------------------------------------
---3-3-3-3-3-------------------3-3-3-3-3-----------------------------------------------

---------------------------------------------------------------------------------------
--22222222222222222222222222222222---------444444444444444444-55555555555555555555-----
--777777777777777777777777-9999999999999999999999999999-1212121212121212121212121212-141414141414141414---------
---------------------------------------------------------------------------------------
---------------------------------------------------------------------------------------
---------------------------------------------------------------------------------------
---------------------------------------------------------------------------------------

---------------------------------------------------------------------------------------
---------------------------------------------------------------------------------------
---------------------------------------------------------------------------------------
--------0-4-xxxx-4---------------------------------------------------------------------
--------0-4-xxxx-4---------------------------------------------------------------------
--------0-2-xxxx-2---------------------------------------------------------------------

Coro:
---------------------------------------------------------------------------------------
---------------------------------------------------------------------------------------
-----67--------------------------------------------------------------------------------
-----67-----2--------4-5-4--4--4-5-4--4------------------------------------------------
-----45-----2--------4-5-4--4--4-5-4--4------------------------------------------------
------------0--------2-3-2--2--2-3-2--2------------------------------------------------

Volver a respirar................
---------------------------------------------------------------------------------------
---------------------------------------------------------------------------------------
---------------------------------------------------------------------------------------
---5-5-5-5-5-------------------5-5-5-5-5-----------------------------------------------
---5-5-5-5-5-------------------5-5-5-5-5-----------------------------------------------
---3-3-3-3-3-------------------3-3-3-3-3-----------------------------------------------

---------------------------------------------------------------------------------------
---------------------------------------------------------------------------------------
---------------------------------------------------------------------------------------
--------------4-5-4(4)-4--4-5-4(4)-4--4-5-4(4)-4----7-7---------2----------------------
--------------4-5-4(4)-4--4-5-4(4)-4--4-5-4(4)-4----7-7---------2----------------------
--------------2-3-2(2)-2--2-3-2(2)-2--2-3-2(2)-2----5-5----(x)--0----------------------

Volver a respirar............
---------------------------------------------------------------------------------------
---------------------------------------------------------------------------------------
---------------------------------------------------------------------------------------
--------------4-5-4(4)-4--4-5-4(4)-4--4-5-4(4)-4----7-7---------2----------------------
--------------4-5-4(4)-4--4-5-4(4)-4--4-5-4(4)-4----7-7---------2----------------------
--------------2-3-2(2)-2--2-3-2(2)-2--2-3-2(2)-2----5-5----(x)--0----------------------

Y termina en:
---------------------------------------------------------------------------------------
---------------------------------------------------------------------------------------
---------------------------------------------------------------------------------------
--------------------------7-7---------2------------------------------------------------
--------------------------7-7---------2------------------------------------------------
--------------------------5-5---------0------------------------------------------------

---------------------------------------------------------------------------------------
-------9--------------------------------------14-------14/9----------------------------
---------------------------------------------------------------------------------------
---------------------------------------------------------------------------------------
---------------------------------------------------------------------------------------
---------------------------------------------------------------------------------------

Bueno eso es todo dudas o comentarios escribanme a mario18_pg@hotmail.com



Keywords / Palabras clave: Volver a respirar, Qbo, letras, letra, acordes, canciones, cancion, grupo, banda, cantante, tablatura, partitura, tocar con guitarra, armónica, teclado, bajo, ejecutar, bajar, mp3, música, chords, lyrics, versión, cover, piano, acrodes, acordes de Volver a respirar, Qbo

Inicio | Artistas | Recursos | Buscar | AGREGA TU TABLATURA A 10ACORDES | Contacto

www.10acordes.com.ar - 2014© - 2014-11-23 18:49:53