letra, letras, acorde, acordes, tablatura, tablaturas, partitura, partituras de la canción Vuelve A Empezar de Rescate, 40376

Vuelve A Empezar de Rescate

Colaboración de EMERSON PAZ CONTRERAS (TAB)

(chundia @ hotmail.com)          (Visitas: 5125)

Ver Vuelve A Empezar de Rescate en vista para impresión



¿Dudas de cómo es un acorde? Visitar la página cómo formar acordes en guitarra

ESTA ES LA VERSIÓN ORIGINAL DE RESCATE LA CANCIÓN ES ' VUELVE A EMPEZAR '
BUENO AQUÍ VA .... DISFRÚTENLA  OKI
SALUDOS A MI IGLESIA ' JESUS PUERTA DEL CIELO '
Y A LA IGLESIA ' CRISTO LA ROCA '..

INTRO :


e:----------------------------------------|
B:----------------------------------------|se repite
G:----------------------------------------|
D:----4-5---------7---4h5-4-2-------------|6 veces
A:--2---------4-7-------------5-4--2-1----|
E:--------4h5-----------------------------|lo mismo

AQUÍ VA LA CANCIÓN.........
REM      LAM      SIm      FA#M
   Que dolor otra vez he caído
REM     LAM        SIm         FA#M
   Esta vez de muerte me han herido
SOLM          REM
Oh, oh, oh,   oh, oh, oh,
FA#M                  SIm
Viendo tus ojos en la lluvia
SOLM          REM
Oh, oh, oh,   oh, oh, oh,
FA#M         SIm
Que me decían
ESTO VA JUNTO AL CORO DE VUELVE A EMPEZAR EN TOTAL SON
5 VECES PORCIACA....
e:----------------------------------------|
B:----------------------------------------|se repite
G:----------------------------------------|
D:----4-5---------7---4h5-4-2-------------|4 veces
A:--2---------4-7-------------5-4--2-1----|
E:--------4h5-----------------------------|

e:------------------------------|
B:------------------------------|
G:--------------------------4---|y esta ultima
D:----4-5---------7---4h5-4-----|
A:--2---------4-7---------------|asi....
E:--------4h5-------------------|
AQUÍ SOLO ENTRAN ESTOS ACORDES  ( EN  eh ,  eh  he caído )
SIm  LAM  SOLM  FA#M  3 veces
SIm  LAM .....SOLM  FA#M  SIm

LA SEGUNDA PARTE CON SUS ADORNOS
REM     LAM    SIm      FA#M
   El amor olvido mi pasado
e:------6----------------------|
B:--7-8---8-7-5-7-5------------|
G:------------------7-6-4-6-7--|
D:-----------------------------|
A:-----------------------------|
E:-----------------------------|
REM      LAM        SIm     FA#M
   En la cruz se borro mi pecado
e:----------6---6-----------6-7--|
B:--5-7-8-7-------8-7-5-7-5------|
G:-------------------------------|
D:-------------------------------|
A:-------------------------------|
E:-------------------------------|
SOLM          REM
Oh, oh, oh,   oh, oh, oh,
FA#M                         SIm
Hecha pa  adelante que estas frió  AQUÍ ME FALTO UN ADORNO ES MUY DIFICIL..
SOLM          REM
Oh, oh, oh,   oh, oh, oh,
FA#M          SIm
Baila conmigo
e:----------------------------------------|
B:----------------------------------------|
G:----------------------------------------|
D:----4-5---------7---4h5-4-2-------------|
A:--2---------4-7-------------5-4--2-1----|
E:--------4h5-----------------------------|


e:--------------|
B:--------------|12 veces
G:--4--4--------|
D:--4--4--------|bum bum..
A:--------------|
E:--------------|
SUBE UN TONO A DO..

e:--------------|
B:--------------|2 veces
G:--5--5--------|
D:--5--5--------|
A:--------------|
E:--------------|
e:----------------------------------------|
B:----------------------------------------|
G:----------------------------------------|
D:----5-6---------8---5h6-5-3-------------|
A:--3---------5-8-------------6-5--3-2----|
E:--------5h6-----------------------------|

e:--------------|
B:--------------|3 veces y
G:--5--5--------|
D:--5--5--------|para final
A:--------------|
E:--------------|
ES TODO DUDAS A MI CORREO chundia@hotmail.com
HASTA LA PRÓXIMA QUE DIOS LES BENDIGA MUCHO CHAU.... NOS VEMOS...



Keywords / Palabras clave: Vuelve A Empezar, Rescate, letras, letra, acordes, canciones, cancion, grupo, banda, cantante, tablatura, partitura, tocar con guitarra, armónica, teclado, bajo, ejecutar, bajar, mp3, música, chords, lyrics, versión, cover, piano, acrodes, acordes de Vuelve A Empezar, Rescate

Inicio | Artistas | Recursos | Buscar | AGREGA TU TABLATURA A 10ACORDES | Contacto

www.10acordes.com.ar - 2014© - 2014-04-24 15:02:25