los Auténticos Decadentes
Corazón
Colaboración de Juan Ignacio Morales
jdm@coseganet.com.ar

INTRO:

                            Do        Re
e|-----------------------------0---0-----2---2----|
B|----0-1-3--0-3-0-3-0--3-0--1---1---1/3---3------|
G|------------------------------------------------|
D|------------------------------------------------|

     Sol                       Do     Re    Sol                  Do    Re
e|----7-8-10--7-10-7-10-7-----------7------------------------------------|
B|------------------------10-8-8/10---10----8/10-8-8-8---8/10-8----------|
G|-----------------------------------------------------9-----------------|
D|-----------------------------------------------------------------------|

      Sol                                    Do         Re
e|----12-12-12-12--10-10-10--8-8-8--7-7-7--5--3-3-3-3-3-3/5----|
B|--------------------------------------------5-5-5-5-5-5/7----|
G|-------------------------------------------------------------|
D|-------------------------------------------------------------|



                                  Do  e|--12p10h12--|       Re     e|--14p12h12--|
Yo no sé lo que me pasa cuando estoy                    con vos,
        Sol                   Do         Re
me hipnotiza tu sonrisa, me desarma tu mirada,
     Sol                    Do     Re
y de mí no queda nada, me derrito
              Sol         Do   Re
como un hielo al sol.


       Sol                       Sim
Cuando vamos a algún lado nunca elijo yo,
       Do                          Re                        
porque lo único que quiero es ir contigo.
Sol                       Sim
Vivo dando vueltas a tu alrededor
         Do                        Re
como un perro abandonado que en la calle te siguió.


ESTRIBILLO:


    Sol                                 Sim              __                  
Pero yo no soy tu prisionero y no tengo alma de robot,     |
       Do                       Sol                        |
es que hay algo en tu carita que me gusta,                 |- Bis
       La                      Re                          |
que me gusta y se llevó mi corazón.                      __|
  


INTER: Sol Do Re x4 (arpegiados)


   (Guitarra 1)           (Guitarra 2)
     Sol                                  Do
e|---------------7-10-------------------7-10----|
B|--------7-8-10-----------------7-8-10---------|
G|----7-9--------------------7-9----------------|
D|----------------------------------------------|
 
   (Guitarra 1)           (Guitarra 2)
                   Re                     Sol
e|-------------7-8-12-----------------7-8-12----|
B|------7-8-10-----------------7-8-10-----------|
G|----9----------------------9------------------|
D|----------------------------------------------|

   (Guitarra 1)           (Guitarra 2)
                                              Do       Re
e|---------------7-10-------------------7-10--8-8-8--8-7----|
B|--------7-8-10-----------------7-8-10---------------------|
G|----7-9--------------------7-9----------------------------|
D|----------------------------------------------------------|



Puede ser por tu carácter o mi voluntad,
me hipnotiza tu sonrisa, me desarma tu mirada,
y de mi no queda nada, me derrito 
como un hielo al sol.

Cuando vamos a algún lado nunca elijo yo,
porque lo único que quiero es ir contigo.
Vivo dando vueltas a tu alrededor
como un perro abandonado que en la calle te siguió.

ESTRIBILLO

INTER 2: Sol Do Re x4 (arpegiados)

ESTRIBILLO
 
FINAL:

(Trompeta)

      Sol                          Do         Re                             Sol      _
e|----10-10-10-10-10-10-10-12-10----8-8-8-8-8-10----|        Se llevó mi corazón...    |_ x 12
B|--------------------------------------------------|                                 _|
       



ACORDES UTILIZADOS:

   Sol   Do    Re    Sim   La
e|--0--|--0--|--2--|--2--|--0--|
B|--0--|--1--|--3--|--3--|--2--|
G|--0--|--0--|--2--|--4--|--2--|
D|--0--|--2--|--0--|--4--|--2--|
A|--2--|--3--|--x--|--2--|--0--|
E|--3--|--x--|--x--|--x--|--x--|

 ó (para arpegios y 1º Guitarra)

    Sol    Do     Re    Sim    La
e|---7--|---8--|--10--|--7--|---9--|
B|---8--|---8--|--10--|--7--|--10--|
G|---7--|---9--|--11--|--7--|---9--|
D|---9--|--10--|--12--|--9--|--11--|
A|--10--|--10--|--12--|--9--|--12--|
E|---x--|---8--|--10--|--7--|---x--|



Para cualquier duda, comentario o corrección pueden escribirme.

=============================================================================
Colaboración de JUAN IGNACIO MORALES (juanignaciomorales_127@hotmail.com) 

=============================================================================