Paco de Lucía
Tico Tico
Colaboración de Christian Said Flores Cancino
said_2099@hotmail.com

1)  E A D G B E  
2)  E A D G B E  
2 Guitarras 4/4

|--------------------0-------0---|1---0-------5-------0-------0---|
|------------------------4-------|------------------------4-------|
|--------------------------------|--------------------------------|
|--------------------------------|--------------------------------|
|--------------------------------|--------------------------------|
|--------------------------------|-------------------------------- 
|
|--------------------------------|1---0-------0-------0---0---0---|
|--------------------------------|2---1-------1-------1---1---1---|
|--------------------------------|2---2-------2-------2---2---2---|
|--------------------------------|2-----------2-----------2-------|
|--------------------------------|0-----------0-------------------|
|--------------------------------|--------------------------------|

         
|1---0-------4-------0-------0---|----0---10--7-------0-----------|
|------------------------4-------|6---------------9-------3---2---|
|--------------------------------|--------------------------------|
|--------------------------------|--------------------------------|
|--------------------------------|--------------------------------|
|--------------------------------|-------------------------------- 
|
|0---0-------0-------0---0---0---|0---0-------0-------0---0---0---|
|3---3-------3-------3---3---3---|3---3-------3-------3---3---3---|
|1---1-------1-------1---1---1---|1---1-------1-------1---1---1---|
|0---0-------0-------0---0---0---|0---0-------0-------0---0---0---|
|2-----------2-----------2-------|2-----------2-----------2-------|
|0-----------0-----------0-------|0-----------0-----------0-------|

         
|--------------------------------|------------10------8-----------|
|1-------------------10--9---8---|----10------------------10------|
|--------------------------------|10--------------------------10--|
|--------------------------------|--------------------------------|
|--------------------------------|--------------------------------|
|--------------------------------|-------------------------------- 
|
|0---0-------0---0---------------|1---1-------1-------1---1---1---|
|1---1-------1---1---------------|3---3-------3-------3---3---3---|
|2---2-------2---2---------------|2---2-------2-------2---2---2---|
|2-----------2---2---------------|0-----------0-----------0-------|
|0-----------0---0---------------|--------------------------------|
|--------------------------------|--------------------------------|

         
|------------8-------8---7-------|7---------------5---8---7---5---|
|----10----------------------11--|----0---4---7-------------------|
|9-------------------------------|--------------------------------|
|--------------------------------|--------------------------------|
|--------------------------------|--------------------------------|
|--------------------------------|-------------------------------- 
|
|0---0-------0-------0---0---0---|2---2-------2-------2---2---2---|
|1---1-------1-------1---1---1---|0---0-------0-------0---0---0---|
|2---2-------2-------2---2---2---|2---2-------2-------2---2---2---|
|2-----------2-----------2-------|1-----------1-----------1-------|
|0-----------0-----------0-------|2-----------2-----------2-------|
|--------------------------------|--------------------------------|

         
|--------------------0-------0---|1---0-------5-------0-------0---|
|9-----------------------4-------|------------------------4-------|
|--------------------------------|--------------------------------|
|--------------------------------|--------------------------------|
|--------------------------------|--------------------------------|
|--------------------------------|-------------------------------- 
|
|0-------------------------------|1---0-------0-------0---0---0---|
|3-------------------------------|2---1-------1-------1---1---1---|
|1-------------------------------|2---2-------2-------2---2---2---|
|0-------------------------------|2-----------2-----------2-------|
|2-------------------------------|0-----------0-----------0-------|
|0-------------------------------|--------------------------------|

         
|1---0-------4-------0-------0---|----0---10--7-------0-----------|
|------------------------4-------|6---------------9-------3---2---|
|--------------------------------|--------------------------------|
|--------------------------------|--------------------------------|
|--------------------------------|--------------------------------|
|--------------------------------|-------------------------------- 
|
|0---0-------0-------0---0---0---|0---0-------0-------0---0---0---|
|3---3-------3-------3---3---3---|3---3-------3-------3---3---3---|
|1---1-------1-------1---1---1---|1---1-------1-------1---1---1---|
|0---0-------0-------0---0---0---|0---0-------0-------0---0---0---|
|2-----------2-----------2-------|2-----------2-----------2-------|
|0-----------0-----------0-------|0-----------0-----------0-------|

         
|--------------------------------|------------10------8-----------|
|1-------------------10--9---8---|----10------------------10------|
|--------------------------------|10--------------------------10--|
|--------------------------------|--------------------------------|
|--------------------------------|--------------------------------|
|--------------------------------|-------------------------------- 
|
|0---0-------0---0---------------|1---1-------1-------1---1---1---|
|1---1-------1---1---------------|3---3-------3-------3---3---3---|
|2---2-------2---2---------------|2---2-------2-------2---2---2---|
|2-----------2---2---------------|0-----------0-----------0-------|
|0-----------0---0---------------|--------------------------------|
|--------------------------------|--------------------------------|

         
|------------8-------8---7-------|7-----------7---12--10--8---7---|
|----10----------------------11--|--------9-----------------------|
|9-------------------------------|----9---------------------------|
|--------------------------------|--------------------------------|
|--------------------------------|--------------------------------|
|--------------------------------|-------------------------------- 
|
|0---0-------0-------0---0---0---|0---0-------0-------0---0---0---|
|1---1-------1-------1---1---1---|3---3-------3-------3---3---3---|
|2---2-------2-------2---2---2---|1---1-------1-------1---1---1---|
|2-----------2-----------2-------|0---0-------0-------0---0---0---|
|0-----------0-----------0-------|2-----------2-----------2-------|
|--------------------------------|0-----------0-----------0-------|

         
|--------------------7---5-------|--------------------------------|
|10--------------------------9---|8-------5---8-------5---8---9---|
|--------------------------------|----5-----------5---------------|
|--------------------------------|--------------------------------|
|--------------------------------|--------------------------------|
|--------------------------------|-------------------------------- 
|
|0-------------------------------|0---0-------0-------0---0---0---|
|1-------------------------------|1---1-------1-------1---1---1---|
|2-------------------------------|0---0-------0-------0---0---0---|
|2-------------------------------|2-----------2-----------2-------|
|0-------------------------------|3-----------3-----------3-------|
|--------------------------------|--------------------------------|

         
|5-------------------7---5-------|----------------------------3---|
|----6-------6---------------9---|8---0---3---6---0---3---6-------|
|--------------------------------|--------------------------------|
|--------------------------------|--------------------------------|
|--------------------------------|--------------------------------|
|--------------------------------|-------------------------------- 
|
|1---1-------1-------1---1---1---|1---1-------1-------1---1---1---|
|0---0-------0-------0---0---0---|0---0-------0-------0---0---0---|
|0---0-------0-------0---0---0---|0---0-------0-------0---0---0---|
|0---0-------0-------0---0---0---|0---0-------0-------0---0---0---|
|2-----------2-----------2-------|2-----------2-----------2-------|
|3-----------3-----------3-------|3-----------3-----------3-------|

         
|5---0-------0-------8---8---8---|8---7---7---7-------5---5---5---|
|--------------------------------|--------------------------------|
|--------------------------------|--------------------------------|
|--------------------------------|--------------------------------|
|--------------------------------|--------------------------------|
|--------------------------------|-------------------------------- 
|
|0---0-------0-------0---0---0---|0---0-------0-------0---0---0---|
|1---1-------1-------1---1---1---|1---1-------1-------1---1---1---|
|0---0-------0-------0---0---0---|0---0-------0-------0---0---0---|
|2-----------2-----------2-------|2-----------2-----------2-------|
|3-----------3-----------3-------|3-----------3-----------3-------|
|--------------------------------|--------------------------------|

         
|5-------------------7---7---7---|7-----------7---5-----------5---|
|----6---6---6-------------------|----8---8-----------6---6-------|
|--------------------------------|--------------------------------|
|--------------------------------|--------------------------------|
|--------------------------------|--------------------------------|
|--------------------------------|-------------------------------- 
|
|1---1-------1-------1---1---1---|1---1-------1-------1---1---1---|
|3---3-------3-------3---3---3---|0---0-------0-------0---0---0---|
|2---2-------2-------2---2---2---|0---0-------0-------0---0---0---|
|0-----------0-----------0-------|0---0-------0-------0---0---0---|
|--------------------------------|2-----------2-----------2-------|
|--------------------------------|3-----------3-----------3-------|

         
|--------------------7---5-------|--------------------------------|
|8---------------------------9---|8-------5---8-------5---8---9---|
|--------------------------------|----5-----------5---------------|
|--------------------------------|--------------------------------|
|--------------------------------|--------------------------------|
|--------------------------------|-------------------------------- 
|
|0-------------------------------|0---0-------0-------0---0---0---|
|1-------------------------------|1---1-------1-------1---1---1---|
|0-------------------------------|0---0-------0-------0---0---0---|
|2-------------------------------|2-----------2-----------2-------|
|3-------------------------------|3-----------3-----------3-------|
|--------------------------------|--------------------------------|

         
|5-------------------7---5-------|----------------------------3---|
|----6-------6---------------9---|8---0---3---6---0---3---6-------|
|--------------------------------|--------------------------------|
|--------------------------------|--------------------------------|
|--------------------------------|--------------------------------|
|--------------------------------|-------------------------------- 
|
|1---1-------1-------1---1---1---|1---1-------1-------1---1---1---|
|0---0-------0-------0---0---0---|0---0-------0-------0---0---0---|
|0---0-------0-------0---0---0---|0---0-------0-------0---0---0---|
|0---0-------0-------0---0---0---|0---0-------0-------0---0---0---|
|2-----------2-----------2-------|2-----------2-----------2-------|
|3-----------3-----------3-------|3-----------3-----------3-------|

         
|5---0-------0-------8---7-------|------------7---10--8---7---8---|
|----------------------------11--|10--9---10----------------------|
|--------------------------------|--------------------------------|
|--------------------------------|--------------------------------|
|--------------------------------|--------------------------------|
|--------------------------------|-------------------------------- 
|
|0---0-------0-------0---0---0---|1---1-------1-------1---1---1---|
|1---1-------1-------1---1---1---|3---3-------3-------3---3---3---|
|0---0-------0-------0---0---0---|2---2-------2-------2---2---2---|
|2-----------2-----------2-------|0-----------0-----------0-------|
|3-----------3-----------3-------|--------------------------------|
|--------------------------------|--------------------------------|

         
|12----------------------13--12--|10--8---7-----------------------|
|--------------------------------|------------10--8---------------|
|--------------------------------|--------------------10--9---7---|
|--------------------------------|--------------------------------|
|--------------------------------|--------------------------------|
|--------------------------------|-------------------------------- 
|
|0-------------------------------|1---------------1---------------|
|1-------------------------------|3---------------0---------------|
|0-------------------------------|2---------------0---------------|
|2-------------------------------|0---------------0---------------|
|3-------------------------------|----------------2---------------|
|--------------------------------|----------------3---------------|

        
|--------------------0-------0---|1---0-------5-------0-------0---|
|------------------------4-------|------------------------4-------|
|--------------------------------|--------------------------------|
|10------------------------------|--------------------------------|
|--------------------------------|--------------------------------|
|--------------------------------|-------------------------------- 
|
|0-------------------------------|1---0-------0-------0---0---0---|
|1-------------------------------|2---1-------1-------1---1---1---|
|0-------------------------------|2---2-------2-------2---2---2---|
|2-------------------------------|2-----------2-----------2-------|
|3-------------------------------|0-----------0-----------0-------|
|--------------------------------|--------------------------------|

         
|1---0-------4-------0-------0---|----0---10--7-------0-----------|
|------------------------4-------|6---------------9-------3---2---|
|--------------------------------|--------------------------------|
|--------------------------------|--------------------------------|
|--------------------------------|--------------------------------|
|--------------------------------|-------------------------------- 
|
|0---0-------0-------0---0---0---|0---0-------0-------0---0---0---|
|3---3-------3-------3---3---3---|3---3-------3-------3---3---3---|
|1---1-------1-------1---1---1---|1---1-------1-------1---1---1---|
|0---0-------0-------0---0---0---|0---0-------0-------0---0---0---|
|2-----------2-----------2-------|2-----------2-----------2-------|
|0-----------0-----------0-------|0-----------0-----------0-------|

         
|--------------------------------|------------10------8-----------|
|1-------------------10--9---8---|----10------------------10------|
|--------------------------------|10--------------------------10--|
|--------------------------------|--------------------------------|
|--------------------------------|--------------------------------|
|--------------------------------|-------------------------------- 
|
|0---0-------0---0---------------|1---1-------1-------1---1---1---|
|1---1-------1---1---------------|3---3-------3-------3---3---3---|
|2---2-------2---2---------------|2---2-------2-------2---2---2---|
|2-----------2---2---------------|0-----------0-----------0-------|
|0-----------0---0---------------|--------------------------------|
|--------------------------------|--------------------------------|

         
|------------8-------8---7-------|7---------------5---8---7---5---|
|----10----------------------11--|----0---4---7-------------------|
|9-------------------------------|--------------------------------|
|--------------------------------|--------------------------------|
|--------------------------------|--------------------------------|
|--------------------------------|-------------------------------- 
|
|0---0-------0-------0---0---0---|2---2-------2-------2---2---2---|
|1---1-------1-------1---1---1---|0---0-------0-------0---0---0---|
|2---2-------2-------2---2---2---|2---2-------2-------2---2---2---|
|2-----------2-----------2-------|1-----------1-----------1-------|
|0-----------0-----------0-------|2-----------2-----------2-------|
|--------------------------------|--------------------------------|

         
|--------------------0-------0---|1---0-------5-------0-------0---|
|9-----------------------4-------|------------------------4-------|
|--------------------------------|--------------------------------|
|--------------------------------|--------------------------------|
|--------------------------------|--------------------------------|
|--------------------------------|-------------------------------- 
|
|0-------------------------------|1---0-------0-------0---0---0---|
|3-------------------------------|2---1-------1-------1---1---1---|
|1-------------------------------|2---2-------2-------2---2---2---|
|0-------------------------------|2-----------2-----------2-------|
|2-------------------------------|0-----------0-----------0-------|
|0-------------------------------|--------------------------------|

        
|1---0-------4-------0-------0---|----0---10--7-------0-----------|
|------------------------4-------|6---------------9-------3---2---|
|--------------------------------|--------------------------------|
|--------------------------------|--------------------------------|
|--------------------------------|--------------------------------|
|--------------------------------|-------------------------------- 
|
|0---0-------0-------0---0---0---|0---0-------0-------0---0---0---|
|3---3-------3-------3---3---3---|3---3-------3-------3---3---3---|
|1---1-------1-------1---1---1---|1---1-------1-------1---1---1---|
|0---0-------0-------0---0---0---|0---0-------0-------0---0---0---|
|2-----------2-----------2-------|2-----------2-----------2-------|
|0-----------0-----------0-------|0-----------0-----------0-------|

         
|--------------------------------|------------10------8-----------|
|1-------------------10--9---8---|----10------------------10------|
|--------------------------------|10--------------------------10--|
|--------------------------------|--------------------------------|
|--------------------------------|--------------------------------|
|--------------------------------|-------------------------------- 
|
|0---0-------0---0---------------|1---1-------1-------1---1---1---|
|1---1-------1---1---------------|3---3-------3-------3---3---3---|
|2---2-------2---2---------------|2---2-------2-------2---2---2---|
|2-----------2---2---------------|0-----------0-----------0-------|
|0-----------0---0---------------|--------------------------------|
|--------------------------------|--------------------------------|

         
|------------8-------8---7---6---|7-----------7---12--10--8---7---|
|----10--------------------------|--------9-----------------------|
|9-------------------------------|----9---------------------------|
|--------------------------------|--------------------------------|
|--------------------------------|--------------------------------|
|--------------------------------|-------------------------------- 
|
|0---0-------0-------0---0---0---|0---0-------0-------0---0---0---|
|1---1-------1-------1---1---1---|3---3-------3-------3---3---3---|
|2---2-------2-------2---2---2---|1---1-------1-------1---1---1---|
|2-----------2-----------2-------|0---0-------0-------0---0---0---|
|0-----------0-----------0-------|2-----------2-----------2-------|
|--------------------------------|0-----------0-----------0-------|

        
|--------------------7---5-------|--------------------------------|
|10--------------------------9---|8-------5---8-------5---8---9---|
|--------------------------------|----5-----------5---------------|
|--------------------------------|--------------------------------|
|--------------------------------|--------------------------------|
|--------------------------------|-------------------------------- 
|
|0-------------------------------|0---0-------0-------0---0---0---|
|1-------------------------------|1---1-------1-------1---1---1---|
|2-------------------------------|0---0-------0-------0---0---0---|
|2-------------------------------|2-----------2-----------2-------|
|0-------------------------------|3-----------3-----------3-------|
|--------------------------------|--------------------------------|

         
|5-------------------7---5-------|--------------------------------|
|----6-------6---------------9---|8---0---3---6---0---3---6---8---|
|--------------------------------|--------------------------------|
|--------------------------------|--------------------------------|
|--------------------------------|--------------------------------|
|--------------------------------|-------------------------------- 
|
|1---1-------1-------1---1---1---|1---1-------1-------1---1---1---|
|0---0-------0-------0---0---0---|0---0-------0-------0---0---0---|
|0---0-------0-------0---0---0---|0---0-------0-------0---0---0---|
|0---0-------0-------0---0---0---|0---0-------0-------0---0---0---|
|2-----------2-----------2-------|2-----------2-----------2-------|
|3-----------3-----------3-------|3-----------3-----------3-------|

         
|5-------------------8---8---8---|8---7---7---7-------5---5---5---|
|----5-------5-------------------|--------------------------------|
|--------------------------------|--------------------------------|
|--------------------------------|--------------------------------|
|--------------------------------|--------------------------------|
|--------------------------------|-------------------------------- 
|
|0---0-------0-------0---0---0---|0---0-------0-------0---0---0---|
|1---1-------1-------1---1---1---|1---1-------1-------1---1---1---|
|0---0-------0-------0---0---0---|0---0-------0-------0---0---0---|
|2-----------2-----------2-------|2-----------2-----------2-------|
|3-----------3-----------3-------|3-----------3-----------3-------|
|--------------------------------|--------------------------------|

         
|5-------------------7---7---7---|7-----------7---5-----------5---|
|----6---6---6-------------------|----8---8-----------6---6-------|
|--------------------------------|--------------------------------|
|--------------------------------|--------------------------------|
|--------------------------------|--------------------------------|
|--------------------------------|-------------------------------- 
|
|1---1-------1-------1---1---1---|1---1-------1-------1---1---1---|
|3---3-------3-------3---3---3---|0---0-------0-------0---0---0---|
|2---2-------2-------2---2---2---|0---0-------0-------0---0---0---|
|0-----------0-----------0-------|0---0-------0-------0---0---0---|
|--------------------------------|2-----------2-----------2-------|
|--------------------------------|3-----------3-----------3-------|

         
|--------------------7---5-------|--------------------------------|
|8---------------------------9---|8-------5---8-------5---8---9---|
|--------------------------------|----5-----------5---------------|
|--------------------------------|--------------------------------|
|--------------------------------|--------------------------------|
|--------------------------------|-------------------------------- 
|
|0-------------------------------|0---0-------0-------0---0---0---|
|1-------------------------------|1---1-------1-------1---1---1---|
|0-------------------------------|0---0-------0-------0---0---0---|
|2-------------------------------|2-----------2-----------2-------|
|3-------------------------------|3-----------3-----------3-------|
|--------------------------------|--------------------------------|

         
|5-------------------7---5-------|--------------------------------|
|----6-------6---------------9---|8---0---3---6---0---3---6---8---|
|--------------------------------|--------------------------------|
|--------------------------------|--------------------------------|
|--------------------------------|--------------------------------|
|--------------------------------|-------------------------------- 
|
|1---1-------1-------1---1---1---|1---1-------1-------1---1---1---|
|0---0-------0-------0---0---0---|0---0-------0-------0---0---0---|
|0---0-------0-------0---0---0---|0---0-------0-------0---0---0---|
|0---0-------0-------0---0---0---|0---0-------0-------0---0---0---|
|2-----------2-----------2-------|2-----------2-----------2-------|
|3-----------3-----------3-------|3-----------3-----------3-------|

         
|5---0-------0-------8---7-------|------------7---10--8---7---8---|
|----------------------------11--|10--9---10----------------------|
|--------------------------------|--------------------------------|
|--------------------------------|--------------------------------|
|--------------------------------|--------------------------------|
|--------------------------------|-------------------------------- 
|
|0---0-------0-------0---0---0---|1---1-------1-------1---1---1---|
|1---1-------1-------1---1---1---|3---3-------3-------3---3---3---|
|0---0-------0-------0---0---0---|2---2-------2-------2---2---2---|
|2-----------2-----------2-------|0-----------0-----------0-------|
|3-----------3-----------3-------|--------------------------------|
|--------------------------------|--------------------------------|

         
|12----------------------13--12--|10--8---7-----------------------|
|--------------------------------|------------10--8---------------|
|--------------------------------|--------------------10--9---7---|
|--------------------------------|--------------------------------|
|--------------------------------|--------------------------------|
|--------------------------------|-------------------------------- 
|
|0-------------------------------|1---------------1---------------|
|1-------------------------------|3---------------0---------------|
|0-------------------------------|2---------------0---------------|
|2-------------------------------|0---------------0---------------|
|3-------------------------------|----------------2---------------|
|--------------------------------|----------------3---------------|
        
|--------------------------------|--------------------------------|
|--------------------------------|--------------------------------|
|--------------------------------|--------------------------------|
|10------------------------------|--------------------------------|
|--------------------------------|--------------------------------|
|--------------------------------|-------------------------------- 
|
|0-------------------------------|--------------------------------|
|1-------------------------------|--------------------------------|
|0-------------------------------|--------------------------------|
|2-------------------------------|--------------------------------|
|3-------------------------------|--------------------------------|
|--------------------------------|--------------------------------|